YEM Tab

Intro:
E----------------10----10--------------------------10-13-10----------
B-------------11----11----11--------------------11----------11-------
G----------10----------------10---------------10---------------10----
D-------12----------------------12----------12--------------------12-
A-12h13----------------------------13h12p13--------------------------
E--------------------------------------------------------------------
E----------------10-13-10-------------------------10-13-10-------
B-------------11----------11-------------------11----------11----
G----------10----------------10-------------10----------------10-
D-------12---------------------12-------12-----------------------
A-13-13---------------------------13-13--------------------------
E----------------------------------------------------------------
E-------------------10-13-10-------------------------10-13-10-------
B----------------11----------11-------------------11----------11----
G-------------10----------------10-------------10----------------10-
D----------12----------------------12-------12----------------------
A-13-13-13----------------------------13-13-------------------------
E-------------------------------------------------------------------
    Gm            C               F               C            
E-------------6-10-8-------------|-------------8-----------------|
B-----------8--------8-----------|--------6-10------------8------|
G---------7------------9---------|--------------------------9----|
D-------8----------------10------|---7-10---------------------10-|
A----10---------------------10-7-|-8-----------------10-7--------|
E--------------------------------|-----------------8-------------|
    Eb           Bb6(Gm/B)      C                
E---------------6---6----------|--------------------------|
B-------------8-------8--------|--------------5---5-8---8-|
G-----------8-----7-----7------|-5-----5---5----5-----5---|
D---------8---------------8--5-|-----5---5----------------|
A----6-10----------------------|---7----------------------|
E------------------------------|--------------------------|
   Eb            Gm                 F               C                
E----------------------------------|--------8-------------------12-15-|
B-----11-8-------------------------|----------10---------8---/13------|
G---8------8-----------------------|-------------10----9--------------|
D------------8----------8-12-8-----|---7-10---------10----------------|
A--------------10----10--------10\-|-8--------------------------------|
E-----------------10---------------|----------------------------------|
   Eb                Bb/D                C
E---18-15----------------------------18-|-20---------------------|
B---------16-------------------15-18----|----20-17---------------|
G------------15-------------15----------|----------17------------|
D---------------17-------15-------------|-------------17---------|
A------------------18-17----------------|----------------19------|
E---------------------------------------|-------------------20---|
   Gm            C               F              Bb
E------------6-10-8-------------|-------------8--------------------|
B----------8--------8-----------|--------6-10---11-----------------|
G--------7------------9---------|------------------10--------------|
D------8----------------10------|---7-10--------------12-----------|
A---10---------------------10-7-|-8----------------------13-8------|
E-------------------------------|------------------------------10--|
   Eb             Am7b5               D                  
E---------------------------8-------|-------10-14-10------------------|
B-------------8-11-10---------10----|----10----------10---------------|
G-----------8---------8----------8/-|/11----------------11------------|
D---------8-------------10----------|----------------------12---------|
A------10---------------------------|-------------------------12-9----|
E---11------------------------------|------------------------------10-|
   Eb/G                                  D              Gm      
E---------------15-18-15--------------|---------------14-17----------|
B------------16----------16-----------|------------15-------15-------|
G---------15----------------15--------|----------14------------15----|
D------17-----------------------17----|-------16------------------17-|
A---18-----------------------------18-|-17-17------------------------|
E-------------------------------------|------------------------------|
               Eb/G              Am7b5               D        
E-15-------|--------------15-18-17----------------|---------------------------14----14-|
B----15----|-----------16----------16-------------|------------------15----15----15----|
G-------15-|--------15----------------17-14-------|-14------14----14----14-------------|
D----------|-----17-------------------------13----|------16----16----------------------|
A----------|--18-------------------------------15-|---17-------------------------------|
E----------|--------------------------------------|------------------------------------|
  G                   Am           Bm
                                                 
E-15-----------------------17-----|-------------19-------|
B----15----15------------17--17---|----------19----19----|
G-------16----16-------17------17-|-------19----------19-|
D----------------17-/19-----------|-19/21----------------|
A---------------------------------|----------------------|
E---------------------------------|----------------------|
                     
  C                  Eb                 Gm/D
                                                 
E|-------15-20-|-18p15----18p15----18p15----18p15--------|
B|----17-------|-------16-------16-------15-------15-----|
G|-17----------|-----------------------------------------|
D|-------------|-----------------------------------------|
A|-------------|-----------------------------------------|
E|-------------|-----------------------------------------|
  C                    D
E|----------20-------------------22|
B|----17-20----20----------19-22---|
G|-17-------------17----19---------|
D|---------------------------------|
A|---------------------------------|
E|---------------------------------|
Repeat the following 1-3-5 arpeggios 6 times:
  G                  Am           Bm           C
E|-------10-------10------12----12-----14----14-----15----15---|
B|----12-------12-------13----13-----15----15-----17----17-----|
G|-12-------12--------14----14-----16----16-----17----17-------|
D|-------------------------------------------------------------|
A|-------------------------------------------------------------|
E|-------------------------------------------------------------|
G (repeat  a couple of times)
E|-------------------------|               |-----------|
B|-------------------------|               |-----------|
G|-------------------------|last time play |-----------|and let the last
D|--0---0----0----0-----0--|               |---0-------| low G ring
A|--------2---------2------|               |-----2-----|
E|-3---3----3---3-----3----|               |-3-----3-3-|
(No chord)  Repeat stuff between |: :| an appropriate number of times,
and repeat the whole thing twice:
     1  4  1  4     1  4  2  1  4  3  1  4  3  2
 |:             :|                         |:    :|
E|----------------|-------------------------------|
B|----------------|-------------------------------|
G|----------------|----------14----16----17----16-|
D|------17----17--|----17-------------14----------|
A|---14----14-----|-14----15----17----------17----|
E|----------------|-------------------------------|
Snare drum hit, then repeat the following 6 times:
  C/E            G/D             Am7/C          G/D                
E|--------------|---------------|--------------|--------------|
B|--------------|---------------|--------------|--------------|
G|--0h5--0h5--5-|--0h4--0h4---4-|--0h2-0h2---2-|--0h4--0h4--4-|
D|--------------|---------------|--------------|--------------|
A|-7----7----7--|-5----5----5---|-3----3----3--|-5----5----5--|
E|--------------|---------------|--------------|--------------|
Then after the 6 repetitions, this:
E|-----------------|-------------------|---------------------------------------|
B|-----------------|-------------------|---------------------------------------|
G|---0h5---0h5---5-|-----7----0h7----7-|------9-------11-------12----12----12--|
D|-----------------|-------------------|---------------------------------------|
A|-7-----7-----7---|-7/9-----9-----9---|-9/10---10/12----12/14----14----14-----|
E|-----------------|-------------------|---------------------------------------|
E|-----------------------|-----------------------|-----------------------|
B|-----------------------|-----------------------|-----------------------|
G|----0h17---0h17----17--|----0h16----0h16----16-|----0h14----0h14----14-|
D|-----------------------|-----------------------|-----------------------|
A|-19------19-----19-----|-17------17------17----|-15------15------15----|
E|-----------------------|-----------------------|-----------------------|
   1  3  4  1 4  2  1  3  4  2  1  1  4 3  4  2  3  1 4  3  4  1 4  2     1
E|------------------10----12----10---------12----10-----------------------10-------------|
B|-10----12---13---------------------13---------------13----12---13----------------------|
G|----------9----11----12----11----9----12----11----9----------9----10\11----------------|
D|----12-------------------------------------------------12------------------0--0--0-0-0-|
A|---------------------------------------------------------------------------------------|
E|---------------------------------------------------------------------------------------|
             
   1  3  4  1  4 2     1                1  3  4  1 4  2    1  1   4  3     4  1     1
E|---------------------10-------------|--------------------10--------------------------|-----------------|
B|-10----12---13----------------------|-10----12---13-------------13-------12-------10-|-8-10/12-10-(24)-|
G|----------9----10/11----------------|----------9----9/11----8/9----------------------|------------(24)-|
D|----12------------------0--0--0-0-0-|----12------------------------11/12-----9/10----|-9-10/12-10-(24)-|
A|------------------------------------|------------------------------------------------|-----------------|
E|------------------------------------|------------------------------------------------|-----------------|
Funky chords with bass jam-Strum from 1st string to 6th string and play
4 times:
E|-0---0---|
B|-0---0---|
G|-0---0---|
D|-16--14--|
A|-17--15--|
E|-19--17--|
Then these chords as triplets (let other strings ring):
 
   D7   A    E
E|-12---12---12-|
B|-15---14---12-|
G|-14---14---13-|
D|--------------|
A|--------------|
E|--------------|
Listen to the recording for the timing.
Then these 2 chords to transition to the next part:
   em7  D
E|-12---12-|
B|-12---10-|
G|-12---11-|
D|---------|
A|---------|
E|---------|
Em7 Fmaj7 (6x)
I play these at the octave, like this:
  Em7 Fmaj7
E|-----12---|
B|-12--13---|
G|-12--14---|
D|-12--14---|
A|-x---x----|
E|-12--13---|
Or
 Em7 Fmaj7
E|-7--8---|
B|-8--10--|
G|-7--9---|
D|-9--10--|
A|-7--8---|
E|--------|
\------/ hold bent note as long as indicated
* - pre-bend (bend string to first note before picking)
one note of advice on these solos - although you might automatically
want to slide to the B (3rd string 16th fret) with your middle finger
and bend the A up to B (1st string 17th to 19th frets) with your third
finger, you will be in a much better position for the descending
chromatic licks if you do the slide with your 3rd finger and the bend
with your pinky.  (Just my opinion though)
1st Guitar solo
      G                       F
E|---|-15-17b19-15----------|-----------------------------------------|
B|---|-------------17-16-15-|---15------------------------------------|
G|s16|----------------------|/16--16-15-14--12-14b16r14p12-14p12-14b16|
D|---|----------------------|-------------14--------------------------|
A|---|----------------------|-----------------------------------------|
E|---|----------------------|-----------------------------------------|
                                                           \----------        
(Hold that bent 14...)
 G
E|15---------------------------15-----------------------|
B|---------------------------15--15---------------15b17-|
G|--14b16r14p12--14--12-14b16------16r14p12----12-------|
D|-------------14--14-----------------------14----------|
A|------------------------------------------------------|
E|------------------------------------------------------|
--/                                              \------
  F
           
E|------12-------------------------|
B|-(17)----15b16p12-------12-------|
G|------------------14b16----14-12-|
D|---------------------------------|
A|---------------------------------|
E|---------------------------------|
-------/
  G
E|---17b19---15--------------------------------|
B|--------------17-15--15-17-17b18r17p15-17p15-|
G|-------------------17------------------------|
D|---------------------------------------------|
A|---------------------------------------------|
E|---------------------------------------------|
  F
E|-------15------------------------|
B|---------17-16-15-------15-------|
G|-15s16------------15s16----16----|
D|---------------------------------|
A|---------------------------------|
E|---------------------------------|
  G
E|-----17b19-15---------------------------------------------|
B|--------------18r17-15-17-17b18r17p15-------15------------|
G|-/16----------*-----------------------15/16---16-15-14s12-|
D|----------------------------------------------------------|
A|----------------------------------------------------------|
E|----------------------------------------------------------|
  F
 
E|----------------------------------------|
B|----------------------------------------|
G|----12-14-16r14p12-14p12-14b16-14b16-12-|
D|-14-------*-----------------------------|
A|----------------------------------------|
E|----------------------------------------|
Em7 Fmaj7 (6x)
Then the second guitar solo:
      G                        F
E|----|-15-17b19-15---------|---------------------------------|
B|----|------------17-15----|-15------------------------------|
G|-s16|------------------16-|---16-15-14----------14-14b16-14-|
D|----|---------------------|------------17-14-17-------------|
A|----|---------------------|---------------------------------|
E|----|---------------------|---------------------------------|
  G
E|-22b24--22-20-19-20-20b22-19h20p19----|
B|-----------------------------------20-|
G|--------------------------------------|
D|--------------------------------------|
A|--------------------------------------|
E|--------------------------------------|
  F
E|--------------19-22-22b24r22p19-22-19\-|
B|-----------20--------------------------|
G|-19--19-21-----------------------------|
D|---21----------------------------------|
A|---------------------------------------|
E|---------------------------------------|
  G
E|-----3-------------------------------|--------------------|
B|-------5--3-5-5b6r5p3-5p3----3-------|---------------1/21-|
G|-3s4-----4----------------s4---4-3-2-|-0-----0-----0------|
D|-------------------------------------|---0-2---1/2--------|
A|-------------------------------------|--------------------|
E|-------------------------------------|--------------------|
Rising chords:
B C C# D Eb E F F# G G# A A# B C C# D (up up and away...)
And finally into the verses:
Gm7  C9
Boy
Gm7  C9
Man
Gm7  C9
God
Gm7  C9
Shit
Gm7                                     C9
Wash-a-Uffize and drive me to Firenze
These chords are played like this:
  Gm7 C9
E|-15--15-|
B|-15--15-|
G|-15--15-|
D|-15--14-|
A|-x---15-|
E|-15-----|